Wednesday, July 20, 2011

Chihan Ki Pari - Albatross Guitar chords and lyrics

intro::

E ------------------------------------------------------------------------------------------
B ------------0p1--1----------------0p1--1-----------------0p1--1---------------op1--1--
G ---------0---------------------0-----------------------0--------------------0-----------
D ----0p2------------------0p2--------------------0p2------------------0p2--------------
A --3--------------------3----------------------0---------------------0--------------------
E ------------------------------------------------------------------------------------------


E ------------2--2--3p2--------------2--2--3p2------------------------------------------
B ----------3----------------------3--------------------------0p1--1--------------0p1--1-
G -----0p2-------------------0p2------------------------0---------------------0--------
D --0----------------------0-------------------------0p2------------------0p2----------
A -------------------------------------------------3---------------------3---------------
E ------------------------------------------------------------------------------------------




[C]Eklo Yo Raat Ma
[C]Eklo Yo Raat Ma
[Am]Mero Yo Khatma
[Am]Mero Yo Khatma
[D]Nachalau Ghari Ghari
[D]Nachalau Ghari Ghari
[C]Chihanki Pari
[C]Chihanki Pari

[C]Kalo Kesh Timro
[Am]Laamo Kesh Timro
[G]Seto Saari Ma[C]
[C]Kalo Kesh Timro
[Am]Laamo Kesh Timro
[G]Seto Saari Ma[C]
[C]Lachaundai Timi
[Am]Nalaijau Malai
[G]Kschitiz Paari[C]

[C]Juneli Raat Ma
[C]Juneli Raat Ma
[Am]Timi Chhau Saathma
[Am]Timi Chhau Saathma
[D]Nafakau Ghari Ghari
[D]Nafakau Ghari Ghari
[C]Chihanki Pari
[C]Chihanki Pari

[C]Hiun Jastai Seto
[Am]Naram Gala Timro
[G]Gualabi Timro Oth[C]
[C]Hiun Jastai Seto
[Am]Naram Gala Timro
[G]Gualabi Timro Oth[C]
[C]Nashalau Ankhale
[Am]Bishalu Bhakhale
[G]Bhayechhu Ma Madhhos[C]

[C]Lageko Maatma
[C]Lageko Maatma
[Am]Haata Chha Haatma
[Am]Haata Chha Haatma
[D]Najiskau Ghari Ghari
[D]Najuskau Ghari Ghari
[C]Chihanki Pari
[C]Chihanki Pari

[C]Eklo Yo Raat Ma
[C]Eklo Yo Raat Ma
[Am]Mero Yo Khatma
[Am]Mero Yo Khatma
[D]Nachalau Ghari Ghari
[D]Nafakau Ghari Ghari
[D]Najiskau Ghari Ghari
[C]Chihanki Pari
[C]Chihanki Pari

No comments:

Post a Comment